Augustana - Stars And Boulevards (var.3) Gitarrennoten kostenlos herutnerladen oder online abspielen

Gitarrennoten für Stars And Boulevards (var.3) von Augustana kostenlos herutnerladen oder online abspielen: Datei .txt, 23.88 kb hat 165 Aufrufe und 0 Downloads.

Download gitarrennoten "Stars And Boulevards (var.3)" (Augustana)

Augustana Bandname
Stars And Boulevards Songname
Gitarrennoten Registerkarten-Typ
23.88 kb Dateigröße
.TXT Dateityp
165 Aufrufe
0 Downloads
 
Bist du ein Roboter?

Stars And Boulevards (var.3) gitarrennoten lesen onder online abpsielen

                    Stars And Boulevards Tab by Augustana, 


Title – Stars and Boulevards
Artist- Augustana
Album – All the Stars and Boulevards

Tabbed by: Larry A

Tuning: Standard
Guitar 1 – Electric Acoustic
Guitar 2 – Distortion
Guitar 3 - Clean (tabbed for piano)

 _________________
|Intro (0:00-0:24)|
|_________________|

Guitar 1
e| |-0---0-00-0-0-00-3---3-3-2-0(0)xx|-0---0-00-0-0-00-3---3-3-2-0(0)xx|
B| |-1---1-11-1-1-11-3---3-3-3-3-3-xx|-1---1-11-1-1-11-3---3-3-3-3-3-xx|
G| |-2---2-00-0-0-00-0---0-2-2-2-2-xx|-2---2-00-0-0-00-0---0-2-2-2-2-xx|
D| |-2---2-22-2-2-22-0---0-0-0-0-0-xx|-2---2-22-2-2-22-0---0-0-0-0-0-xx|
A| |-0---0-33-3-3-33-2---2-0-0-0-0-xx|-0---0-33-3-3-33-2---2-0-0-0-0-xx|
E| |-x---x-xx-x-x-xx-3---3-x-x-x-x-xx|-x---x-xx-x-x-xx-3---3-x-x-x-x-xx|
                                                                       |
Guitar 3 (Play one octave higher)                                      |
e| |12--12----------10--10--15141210-|12--12----------10--10--15141210-|
B| |13--13---13-13--12--12-----------|13--13---13-13--12--12-----------|
G| |14--14---12-12--12--12--1211-9-7-|14--14---12-12--12--12--1211-9-7-|
D| |---------10-1010-----------------|---------10-1010-----------------|
A| |15--15----------10--10-----------|15--15----------10--10-----------|
E| |---------8---8-------------------|---------8---8-------------------|

Guitar 1
e| |-0---0-00-0-0-00-3---3-3-2-0(0)xx|-0---0-00-0-0-00-3---3-3-2-0(0)xx|
B| |-1---1-11-1-1-11-3---3-3-3-3-3-xx|-1---1-11-1-1-11-3---3-3-3-3-3-xx|
G| |-2---2-00-0-0-00-0---0-2-2-2-2-xx|-2---2-00-0-0-00-0---0-2-2-2-2-xx|
D| |-2---2-22-2-2-22-0---0-0-0-0-0-xx|-2---2-22-2-2-22-0---0-0-0-0-0-xx|
A| |-0---0-33-3-3-33-2---2-0-0-0-0-xx|-0---0-33-3-3-33-2---2-0-0-0-0-xx|
E| |-x---x-xx-x-x-xx-3---3-x-x-x-x-xx|-x---x-xx-x-x-xx-3---3-x-x-x-x-xx|
                                                                       |
Guitar 2                                                               |
e| |---------------------------------|---------------------------------|
B| |---------------------------------|---------------------------------|
G| |10/1212/1614(14)12121616161412/14|10/1212/1614(14)12121616161412/14|
D| |---------------------x-x-x-x-x--x|---------------------x-x-x-x-x--x|
A| |--------------------1414141210/12|--------------------1414141210/12|
E| |---------------------------------|---------------------------------|
                                                                       |
Guitar 3 (Play one octave higher)                                      |
e| |12--12----------10--10--15141210-|12--12----------10--10--15141210-|
B| |13--13---13-13--12--12-----------|13--13---13-13--12--12-----------|
G| |14--14---12-12--12--12--1211-9-7-|14--14---12-12--12--12--1211-9-7-|
D| |---------10-1010-----------------|---------10-1010-----------------|
A| |15--15----------10--10-----------|15--15----------10--10-----------|
E| |---------8---8-------------------|---------8---8-------------------|

 _________________
|Verse (0:24-0:48)|
|_________________|

Guitar 1 (Slight Distortion)
e| |-0-------0-------3-------3-2-----|-0-------0-------3-------3-2-0---|
B| |-1-------1-------3-------3-3-----|-1-------1-------3-------3-3-3---|
G| |-2-------0-------0-------2-2-----|-2-------0-------0-------2-2-2---|
D| |-2-------2-------0-------0-0-----|-2-------2-------0-------0-0-0---|
A| |-0-------3-------2-------0-0-----|-0-------3-------2-------0-0-0---|
E| |-x-------x-------3-------x-x-----|-x-------x-------3-------x-x-x---|
     Wait    dear,   a white horse is  Street  here     your words are |
                     walking down my                    creeping at my |
                                                                       |
Guitar 2                                                               |
e| |---------------------------------|---------------------------------|
B| |---------------------------------|---------------------------------|
G| |12-------------------------------|---------------------------------|
D| |-x-------------------------------|---------------------------------|
A| |10-------------------------------|---------------------------------|
E| |---------------------------------|---------------------------------|

Guitar 1 (Slight Distortion)
e| |-0-------0-------3-------3-2-0---|-0-------0-------3-------3-2-0---|
B| |-1-------1-------3-------3-3-3---|-1-------1-------3-------3-3-3---|
G| |-2-------0-------0-------2-2-2---|-2-------0-------0-------2-2-2---|
D| |-2-------2-------0-------0-0-0---|-2-------2-------0-------0-0-0---|
A| |-0-------3-------2-------0-0-0---|-0-------3-------2-------0-0-0---|
E| |-x-------x-------3-------x-x-x---|-x-------x-------3-------x-x-x---|
     Feet,  I fear,  sunrise will come Disappear       into the haze of
                     too soon and you'll               this city and go

 __________________
|Bridge (0:48-1:00)|
|__________________|

Guitar 1
e| |-0---0-00-0-0-00-3---3-3-2-0(0)xx|-0---0-00-0-0-00-3---3-3-2-0(0)xx|
B| |o1---1-11-1-1-11-3---3-3-3-3-3-xx|-1---1-11-1-1-11-3---3-3-3-3-3-xx|
G| |-2---2-00-0-0-00-0---0-2-2-2-2-xx|-2---2-00-0-0-00-0---0-2-2-2-2-xx|
D| |-2---2-22-2-2-22-0---0-0-0-0-0-xx|-2---2-22-2-2-22-0---0-0-0-0-0-xx|
A| |o0---0-33-3-3-33-2---2-0-0-0-0-xx|-0---0-33-3-3-33-2---2-0-0-0-0-xx|
E| |-x---x-xx-x-x-xx-3---3-x-x-x-x-xx|-x---x-xx-x-x-xx-3---3-x-x-x-x-xx|
  1. South        Oh no...                                             |
  2.                                                                   |
                                                                       |
Guitar 2                                                               |
e| |---------------------------------|---------------------------------|
B| |o--------------------------------|--------------------------------o|
G| |10/1212/1614(14)12121616161412/14|10/1212/1614(14)12121616161412/14|
D| |---------------------x-x-x-x-x--x|---------------------x-x-x-x-x--x|
A| |o-------------------1414141210/12|--------------------1414141210/12|
E| |---------------------------------|---------------------------------|
                                                                       |
Guitar 3 (Play one octave higher)                                      |
e| |12--12----------10--10--15141210-|12--12----------10--10--15141210-|
B| |13--13---13-13--12--12-----------|13--13---13-13--12--12----------o|
G| |14--14---12-12--12--12--1211-9-7-|14--14---12-12--12--12--1211-9-7-|
D| |---------10-1010-----------------|---------10-1010-----------------|
A| |15--15----------10--10-----------|15--15----------10--10----------o|
E| |---------8---8-------------------|---------8---8-------------------|

 _________________
|Verse (1:00-1:23)|
|_________________|

Guitar 1 (Slight Distortion)
e| |-0-------0-------3-------3-2-----|-0-------0-------3-------3-2-----|
B| |-1-------1-------3-------3-3-----|-1-------1-------3-------3-3-----|
G| |-2-------0-------0-------2-2-----|-2-------0-------0-------2-2-----|
D| |-2-------2-------0-------0-0-----|-2-------2-------0-------0-0-----|
A| |-0-------3-------2-------0-0-----|-0-------3-------2-------0-0-----|
E| |-x-------x-------3-------x-x-----|-x-------x-------3-------x-x-----|
     Look    out,    they're coming    big     guns  they're only gonna|
                     after us with                     tell you all the|
                                                                       |
Guitar 2                                                               |
e| |---------------------------------|---------------------------------|
B| |---------------------------------|---------------------------------|
G| |12-------------------------------|---------------------------------|
D| |-x-------------------------------|---------------------------------|
A| |10-------------------------------|---------------------------------|
E| |---------------------------------|---------------------------------|

Guitar 1 (Slight Distortion)
e| |-0-------0-------3-------3-2-----|-0-------0--------------(3)2-2-2-|
B| |-1-------1-------3-------3-3-----|-1-------1------------(3)3-3-3-2-|
G| |-2-------0-------0-------2-2-----|-2-------0----------(2)2-2-2-2-2-|
D| |-2-------2-------0-------0-0-----|-2-------2--------(0)0-0-0-0-0-0-|
A| |-0-------3-------2-------0-0-----|-0-------3------(2)2-2-2-0-0-0-0-|
E| |-x-------x-------3-------x-x-----|-x-------x-------3-3-3-3-3-x-x-x-|
     Bad     I've    even if the words True    they've and I'm left    |
     things  done    they say are              won     here dying in   |
                                                       the sun         |
Guitar 2                                                               |
e| |---------------------------------|---------------------------------|
B| |---------------------------------|---------------------------------|
G| |---------------------------------|---------------------------------|
D| |---------------------------------|-----------------5-5-5-5-5-5-5-5-|
A| |---------------------------------|-----------------5-5-5-5-5-5-5-5-|
E| |---------------------------------|-----------------3-3-3-3-3-3-3-3-|
                                                       * * * *

 __________________
|Chorus (1:24-1:47)|
|__________________|

Guitar 1
e| |-0---0-00-0-0-00-3---3-3-2-0(0)xx|-0---0-00-0-0-00-3---3-3-2-0(0)xx|
B| |o1---1-11-1-1-11-3---3-3-3-3-3-xx|-1---1-11-1-1-11-3---3-3-3-3-3-xx|
G| |-2---2-00-0-0-00-0---0-2-2-2-2-xx|-2---2-00-0-0-00-0---0-2-2-2-2-xx|
D| |-2---2-22-2-2-22-0---0-0-0-0-0-xx|-2---2-22-2-2-22-0---0-0-0-0-0-xx|
A| |o0---0-33-3-3-33-2---2-0-0-0-0-xx|-0---0-33-3-3-33-2---2-0-0-0-0-xx|
E| |-x---x-xx-x-x-xx-3---3-x-x-x-x-xx|-x---x-xx-x-x-xx-3---3-x-x-x-x-xx|
  1. Oh...             Seems like I'm  Own...            Seems like I'm|
                       always on my                      never coming  |
                                                                       |
  2. Home...           Seems like I'm  All the stars   ain't close     |
                       always on my    and boulevards  enough for you  |
                                                                       |
Guitar 2                                                               |
e| |---------------------------------|---------------------------------|
B| |o--------------------------------|--------------------------------o|
G| |-2-2-2-2-5-5-5-5---------7-7-7-7-|-2-2-2-2-5-5-5-5---------7-7-7-7-|
D| |-2-2-2-2-5-5-5-5-5-5-5-5-7-7-7-7-|-2-2-2-2-5-5-5-5-5-5-5-5-7-7-7-7-|
A| |o0-0-0-0-3-3-3-3-5-5-5-5-5-5-5-5-|-0-0-0-0-3-3-3-3-5-5-5-5-5-5-5-5o|
E| |-----------------3-3-3-3---------|-----------------3-3-3-3---------|

 _____________________
|Interlude (1:48-2:00)|
|_____________________|

Guitar 1
e| |-0---0-00-0-0-00-3---3-3-2-0(0)xx|-0---0-00-0-0-00-3---3-3-2-0(0)xx|
B| |-1---1-11-1-1-11-3---3-3-3-3-3-xx|-1---1-11-1-1-11-3---3-3-3-3-3-xx|
G| |-2---2-00-0-0-00-0---0-2-2-2-2-xx|-2---2-00-0-0-00-0---0-2-2-2-2-xx|
D| |-2---2-22-2-2-22-0---0-0-0-0-0-xx|-2---2-22-2-2-22-0---0-0-0-0-0-xx|
A| |-0---0-33-3-3-33-2---2-0-0-0-0-xx|-0---0-33-3-3-33-2---2-0-0-0-0-xx|
E| |-x---x-xx-x-x-xx-3---3-x-x-x-x-xx|-x---x-xx-x-x-xx-3---3-x-x-x-x-xx|
                                                                       |
Guitar 2                                                               |
e| |---------------------------------|---------------------------------|
B| |---------------------------------|---------------------------------|
G| |10/1212/1614(14)12121616161412/14|10/1212/1614(14)12121616161412/14|
D| |---------------------x-x-x-x-x--x|---------------------x-x-x-x-x--x|
A| |--------------------1414141210/12|--------------------1414141210/12|
E| |---------------------------------|---------------------------------|
                                                                       |
Guitar 3 (Play one octave higher)                                      |
e| |12--12----------10--10--15141210-|12--12----------10--10--15141210-|
B| |13--13---13-13--12--12-----------|13--13---13-13--12--12-----------|
G| |14--14---12-12--12--12--1211-9-7-|14--14---12-12--12--12--1211-9-7-|
D| |---------10-1010-----------------|---------10-1010-----------------|
A| |15--15----------10--10-----------|15--15----------10--10-----------|
E| |---------8---8-------------------|---------8---8-------------------|

 _________________
|Verse (2:00-2:24)|
|_________________|

Guitar 1 (Slight Distortion)
e| |-0-------------------------------|---------------------------------|
B| |-1-------------------------------|---------------------------------|
G| |-2-------------------------------|---------------------------------|
D| |-2-------------------------------|---------------------------------|
A| |-0-------------------------------|---------------------------------|
E| |-x-------------------------------|---------------------------------|
     Late    nights  won't do me justice Drink I       just get so damn|
                     cause when I                    depressed and it's|
                                                                       |
Guitar 2                                                               |
e| |---------------------------------|---------------------------------|
B| |---------------------------------|---------------------------------|
G| |12-------------------------------|---------------------------------|
D| |-x-------------------------------|---------------------------------|
A| |10-------------------------------|---------------------------------|
E| |---------------------------------|---------------------------------|
                                                                       |
Guitar 3                                                               |
e| |--1514--1514--1514--1514--1514--1514--1514--1514--1514--1514--1514-|
B| |17----17----17----17----17----17-|--17----17----17----17----17-----|
G| |---------------------------------|---------------------------------|
D| |---------------------------------|---------------------------------|
A| |---------------------------------|---------------------------------|
E| |---------------------------------|---------------------------------|

Guitar 1 (Slight Distortion)
e| |-0-------0-------3-------3-2-----|-0-------0--------------(3)2-2-2-|
B| |-1-------1-------3-------3-3-----|-1-------1------------(3)3-3-3-2-|
G| |-2-------0-------0-------2-2-----|-2-------0----------(2)2-2-2-2-2-|
D| |-2-------2-------0-------0-0-----|-2-------2--------(0)0-0-0-0-0-0-|
A| |-0-------3-------2-------0-0-----|-0-------3------(2)2-2-2-0-0-0-0-|
E| |-x-------x-------3-------x-x-----|-x-------x-------3-3-3-3-3-x-x-x-|
        Not  like    I ain't trying to Just hard All the Pass me over  |
                     get over you it's look at   seasons too... And I  |
                                                         said          |
Guitar 2                                                               |
e| |---------------------------------|---------------------------------|
B| |---------------------------------|---------------------------------|
G| |---------------------------------|---------------------------------|
D| |---------------------------------|-----------------5-5-5-5-5-5-5-5-|
A| |---------------------------------|-----------------5-5-5-5-5-5-5-5-|
E| |---------------------------------|-----------------3-3-3-3-3-3-3-3-|
                                                       * * * *
 __________________
|Chorus (2:24-2:47)|
|__________________|

Guitar 1
e| |-0---0-00-0-0-00-3---3-3-2-0(0)xx|-0---0-00-0-0-00-3---3-3-2-0(0)xx|
B| |o1---1-11-1-1-11-3---3-3-3-3-3-xx|-1---1-11-1-1-11-3---3-3-3-3-3-xx|
G| |-2---2-00-0-0-00-0---0-2-2-2-2-xx|-2---2-00-0-0-00-0---0-2-2-2-2-xx|
D| |-2---2-22-2-2-22-0---0-0-0-0-0-xx|-2---2-22-2-2-22-0---0-0-0-0-0-xx|
A| |o0---0-33-3-3-33-2---2-0-0-0-0-xx|-0---0-33-3-3-33-2---2-0-0-0-0-xx|
E| |-x---x-xx-x-x-xx-3---3-x-x-x-x-xx|-x---x-xx-x-x-xx-3---3-x-x-x-x-xx|
  1. Oh...             Seems like I'm  Own...            Seems like I'm|
                       always on my                      never coming  |
                                                                       |
  2. Home...           Seems like I'm  All the stars   ain't close     |
                       always on my    and boulevards  enough for you  |
                                                                       |
Guitar 2                                                               |
e| |---------------------------------|---------------------------------|
B| |o--------------------------------|--------------------------------o|
G| |-2-2-2-2-5-5-5-5---------7-7-7-7-|-2-2-2-2-5-5-5-5---------7-7-7-7-|
D| |-2-2-2-2-5-5-5-5-5-5-5-5-7-7-7-7-|-2-2-2-2-5-5-5-5-5-5-5-5-7-7-7-7-|
A| |o0-0-0-0-3-3-3-3-5-5-5-5-5-5-5-5-|-0-0-0-0-3-3-3-3-5-5-5-5-5-5-5-5o|
E| |-----------------3-3-3-3---------|-----------------3-3-3-3---------|

 ________________
|Solo (2:48-3:00)|                                
|________________|

Guitar 1 (Slight Distortion)
e| |---------------------------------|---------------------------------|
B| |---------------------------------|---------------------------------|
G| (12/14/191717141412/14/1917171414)(12/14/191717141412/14/1917171414)|
D| |-x--x--x-x-x-x-x-x--x--x-x-x-x-x-|-x--x--x-x-x-x-x-x--x--x-x-x-x-x-|
A| |10/12/171515121210/12/1715151212-|10/12/171515121210/12/1715151212-|
E| |---------------------------------|---------------------------------|
                                                                       |
Guitar 2                                                               |
e| |---------------------------------|---------------------------------|
B| |---------------------------------|---------------------------------|
G| |-2-2-2-2-5-5-5-5---------7-7-7-7-|-2-2-2-2-5-5-5-5---------7-7-7-7-|
D| |-2-2-2-2-5-5-5-5-5-5-5-5-7-7-7-7-|-2-2-2-2-5-5-5-5-5-5-5-5-7-7-7-7-|
A| |-0-0-0-0-3-3-3-3-5-5-5-5-5-5-5-5-|-0-0-0-0-3-3-3-3-5-5-5-5-5-5-5-5-|
E| |-----------------3-3-3-3---------|-----------------3-3-3-3---------|

 _________________
|Verse (3:00-3:24)|
|_________________|

Guitar 1 (Slight Distortion)
e| |-0---0-00-0-0-00-3---3-3-2-0(0)xx|-0---0-00-0-0-00-3---3-3-2-0-----|
B| |-1---1-11-1-1-11-3---3-3-3-3-3-xx|-1---1-11-1-1-11-3---3-3-3-3-----|
G| |-2---2-00-0-0-00-0---0-2-2-2-2-xx|-2---2-00-0-0-00-0---0-2-2-2-----|
D| |-2---2-22-2-2-22-0---0-0-0-0-0-xx|-2---2-22-2-2-22-0---0-0-0-0-----|
A| |-0---0-33-3-3-33-2---2-0-0-0-0-xx|-0---0-33-3-3-33-2---2-0-0-0-----|
E| |-x---x-xx-x-x-xx-3---3-x-x-x-x-xx|-x---x-xx-x-x-xx-3---3-x-x-x-----|
     One   last..     phone call from  hurt  much...    jus' like to hear
                      you, it wouldn't                  your voice and 

Guitar 1 (Slight Distortion)
e| |-0-------0-------3-------3-2-----|-0-------0--------------(3)2-2-2-|
B| |-1-------1-------3-------3-3-----|-1-------1------------(3)3-3-3-2-|
G| |-2-------0-------0-------2-2-----|-2-------0----------(2)2-2-2-2-2-|
D| |-2-------2-------0-------0-0-----|-2-------2--------(0)0-0-0-0-0-0-|
A| |-0-------3-------2-------0-0-----|-0-------3------(2)2-2-2-0-0-0-0-|
E| |-x-------x-------3-------x-x-----|-x-------x-------3-3-3-3-3-x-x-x-|
     Pretend to touch, any inch of you Said it Or read Or sung my life |
                       that hasn't     all     it all  away and I said |
                                                                       |
Guitar 2                                                               |
e| |---------------------------------|---------------------------------|
B| |---------------------------------|---------------------------------|
G| |---------------------------------|---------------------------------|
D| |---------------------------------|-----------------5-5-5-5-5-5-5-5-|
A| |---------------------------------|-----------------5-5-5-5-5-5-5-5-|
E| |---------------------------------|-----------------3-3-3-3-3-3-3-3-|
                                                       * * * *

 __________________
|Chorus (3:24-3:48)|
|__________________|

Guitar 1
e| |-0---0-00-0-0-00-3---3-3-2-0(0)xx|-0---0-00-0-0-00-3---3-3-2-0(0)xx|
B| |o1---1-11-1-1-11-3---3-3-3-3-3-xx|-1---1-11-1-1-11-3---3-3-3-3-3-xx|
G| |-2---2-00-0-0-00-0---0-2-2-2-2-xx|-2---2-00-0-0-00-0---0-2-2-2-2-xx|
D| |-2---2-22-2-2-22-0---0-0-0-0-0-xx|-2---2-22-2-2-22-0---0-0-0-0-0-xx|
A| |o0---0-33-3-3-33-2---2-0-0-0-0-xx|-0---0-33-3-3-33-2---2-0-0-0-0-xx|
E| |-x---x-xx-x-x-xx-3---3-x-x-x-x-xx|-x---x-xx-x-x-xx-3---3-x-x-x-x-xx|
  1. Oh...             Seems like I'm  Own...            Seems like I'm|
                       always on my                      never coming  |
                                                                       |
  2. Home...           Seems like I'm  Own...                          |
                       always on my                                    |
                                                                       |
Guitar 2                                                               |
e| |---------------------------------|---------------------------------|
B| |o--------------------------------|--------------------------------o|
G| |-2-2-2-2-5-5-5-5---------7-7-7-7-|-2-2-2-2-5-5-5-5---------7-7-7-7-|
D| |-2-2-2-2-5-5-5-5-5-5-5-5-7-7-7-7-|-2-2-2-2-5-5-5-5-5-5-5-5-7-7-7-7-|
A| |o0-0-0-0-3-3-3-3-5-5-5-5-5-5-5-5-|-0-0-0-0-3-3-3-3-5-5-5-5-5-5-5-5o|
E| |-----------------3-3-3-3---------|-----------------3-3-3-3---------|

 _________________
|Outro (3:48-4:21)|
|_________________|

Guitar 1
e| |-0---0-00-0-0-00-3---3-3-2-0(0)xx|-0---0-00-0-0-00-3---3-3-2-0(0)xx|
B| |o1---1-11-1-1-11-3---3-3-3-3-3-xx|-1---1-11-1-1-11-3---3-3-3-3-3-xx|
G| |-2---2-00-0-0-00-0---0-2-2-2-2-xx|-2---2-00-0-0-00-0---0-2-2-2-2-xx|
D| |-2---2-22-2-2-22-0---0-0-0-0-0-xx|-2---2-22-2-2-22-0---0-0-0-0-0-xx|
A| |o0---0-33-3-3-33-2---2-0-0-0-0-xx|-0---0-33-3-3-33-2---2-0-0-0-0-xx|
E| |-x---x-xx-x-x-xx-3---3-x-x-x-x-xx|-x---x-xx-x-x-xx-3---3-x-x-x-x-xx|
  1. Oh...             Seems like I'm  Own...            Seems like I'm|
                       always on my                      never coming  |
    (All the stars and boulevards     (All the stars and boulevards    |
     ain't close enough for you...)    ain't close enough for you...)  |
                                                                       |
  2. Home...           Seems like I'm  Own...                          |
                       always on my                                    |
    (I can make you let it go cause'  (All the stars and boulevards    |
     there ain't you won't do     )    ain't close enough for you...)  |
                                                                       |
Guitar 2                                                               |
e| |---------------------------------|---------------------------------|
B| |o--------------------------------|--------------------------------o|
G| |-2-2-2-2-5-5-5-5---------7-7-7-7-|-2-2-2-2-5-5-5-5---------7-7-7-7-|
D| |-2-2-2-2-5-5-5-5-5-5-5-5-7-7-7-7-|-2-2-2-2-5-5-5-5-5-5-5-5-7-7-7-7-|
A| |o0-0-0-0-3-3-3-3-5-5-5-5-5-5-5-5-|-0-0-0-0-3-3-3-3-5-5-5-5-5-5-5-5o|
E| |-----------------3-3-3-3---------|-----------------3-3-3-3---------|

Guitar 1
e| |-0~~~----------------------------|---------------------------------|
B| |-1~~~----------------------------|---------------------------------|
G| |-2~~~----------------------------|---------------------------------|
D| |-2~~~----------------------------|---------------------------------|
A| |-0~~~----------------------------|---------------------------------|
E| |-x~~~----------------------------|---------------------------------|
                                                                       |
Guitar 2                                                               |
e| |---------------------------------|---------------------------------|
B| |---------------------------------|---------------------------------|
G| |-2~~~----------------------------|---------------------------------|
D| |-2~~~----------------------------|---------------------------------|
A| |-0~~~----------------------------|---------------------------------|
E| |---------------------------------|---------------------------------|


 ________
| Legend |
|________|

(0) - Slightly played
~   - Sustain
/   - Slide up
x   - Mute

 _______
| Notes |
|_______|

This tab is now 100% complete including guitar and keyboard parts.
Notice that the solo has a slightly played phrase.                    

Kommentare für gitarrennoten — Stars And Boulevards (var.3) (Augustana)

Andere Stars And Boulevards (var.3) von Augustana Registerkarten:

Zuletzt angesehene Augustana Registerkarten: