Augustana - Bullets Bass Noten kostenlos herutnerladen oder online abspielen

Bass Noten für Bullets von Augustana kostenlos herutnerladen oder online abspielen: Datei .txt, 4.39 kb hat 167 Aufrufe und 0 Downloads.

Download bass noten "Bullets" (Augustana)

Augustana Bandname
Bullets Songname
Bass Noten Registerkarten-Typ
4.39 kb Dateigröße
.TXT Dateityp
167 Aufrufe
0 Downloads
 
Bist du ein Roboter?

Bullets bass noten lesen onder online abpsielen

                    -------------------------------------------------------------------------------
                             Bullets - Augustana
-------------------------------------------------------------------------------

Tabbed By : Joe Howells
e-mail: joe_howells@yahoo.com

Tuning: DADG

Intro: 00:00
G|---------------------------------------------------------------------------|
D|---------------------------------------------------------------------------|
A|3-3-3-3-3-3-3-3-3-3-3-3/5-5-5-5/6-6-6-6-6-6-6-6-6-6-6-6-6-6-6-6-6-6-6-0----|
D|---------------------------------------------------------------------------|

G|---------------------------------------------------------------------------|
D|---------------------------------------------------------------------------|
A|3-3-3-3-3-3-3-3-3-3-3-3----------------------------------------------------|
D|------------------------0-0-0-0-1-1-1-1-1-1-1-1-1-1-1-1-1-1-1-1-1-1-1-1----|

Verse: 00:14
G|---------------------------------------------------------------------------|
D|---------------------------------------------------------------------------|
A|3-3-3-3-3-3-3-3-3-3-3-3/5-5-5-5/6-6-6-6-6-6-6-6-6-6-6-6-6-6-6-6-6-6-6-0----|
D|---------------------------------------------------------------------------|

G|---------------------------------------------------------------------------|
D|---------------------------------------------------------------------------|
A|3-3-3-3-3-3-3-3-3-3-3-3----------------------------------------------------|
D|------------------------0-0-0-0-1-1-1-1-1-1-1-1-1-1-1-1-1-1-1-1-1-1-1-1----|

G|---------------------------------------------------------------------------|
D|---------------------------------------------------------------------------|
A|3-3-3-3-3-3-3-3-3-3-3-3/5-5-5-5/6-6-6-6-6-6-6-6-6-6-6-6-6-6-6-6-6-6-6-0----|
D|---------------------------------------------------------------------------|

G|---------------------------------------------------------------------------|
D|---------------------------------------------------------------------------|
A|3-3-3-3-3-3-3-3-3-3-3-3----------------------------------------------------|
D|------------------------0-0-0-0-1-1-1-1-1-1-1-1-1-1-1-1-1-1-1-1-1-1-1-1----|

Pre-chorus: 00:42
This bit sounds beautiful, sustain the 8 when you hit the 10, it's quite hard to tab:
G|------------------------------------------------------------|
D|---10-----------------------------10------------------------|
A|/8~~~8~~~~~~~~~~\6~~~~~~~~~~6-6/8~~~8~~~~~~~~~\6~~~~~~~~~6-6|
D|------------------------------------------------------------|

G|--------------------------------------------------------------------|
D|---10-----------------------------10--------------------------------|
A|/8~~~8~~~~~~~~~~\6~~~~~~~~~~6-6/8~~~8~~~~~~~~~\6-6-6-6-6-6-6--------|
D|--------------------------------------------------------------------|

Chorus: 00:56
G|-----------------------------------|
D|-----------------------------------|
A|6~~~~~\1-1~~~~~/3-3~~~~~/5-5-5-5-5-|  x4
D|-----------------------------------|

Verse x1

Pre-chorus x1

Chorus x1

Bridge: 02:07

G|--------------------------------|
D|--------------------------------|
A|1-1-1-1-1-1-1-1/6-6-6-6-6-6-6-6-| x2
D|--------------------------------|

G|--------------------------------|
D|--------------------------------|
A|------------3-5-6-6-6-6-6-6-6-6-| x2
D|5-5-5-5-5-5---------------------|

“It's in my head....”: 
G|---------------------------------------------------------------------------|
D|---------------------------------------------------------------------------|
A|3-3-3-3-3-3-3-3-3-3-3-3-3-3-3-3/6-6-6-6-6-6-6-6-6-6-6-6-6-6-6-0------------|
D|---------------------------------------------------------------------------|

G|---------------------------------------------------------------------------|
D|---------------------------------------------------------------------------|
A|3-3-3-3-3-3-3-3-3-3-3-3-3-3-3-3/6-6-6-6-6-6-6-6-6-6-6--REST----------------|
D|---------------------------------------------------------------------------|

Verse till end, finish on:
G|------------|
D|------------|
A|6~~~~~~~~~~~|
D|------------|

This the first song I ever tabbed, so go easy on the comments ;)

Cheers all!

| /  slide up
| \  slide down
| h  hammer-on
| p  pull-off
| ~  vibrato
| +  harmonic
| x  Mute note
===============================================================================                    

Kommentare für bass noten — Bullets (Augustana)

Andere Bullets von Augustana Registerkarten:

Zuletzt angesehene Augustana Registerkarten: