Augustana - Sunday (var.2) Gitarrennoten kostenlos herutnerladen oder online abspielen

Gitarrennoten für Sunday (var.2) von Augustana kostenlos herutnerladen oder online abspielen: Datei .txt, 3.68 kb hat 164 Aufrufe und 0 Downloads.

Download gitarrennoten "Sunday (var.2)" (Augustana)

Augustana Bandname
Sunday Songname
Gitarrennoten Registerkarten-Typ
3.68 kb Dateigröße
.TXT Dateityp
164 Aufrufe
0 Downloads
 
Bist du ein Roboter?

Sunday (var.2) gitarrennoten lesen onder online abpsielen

                    Jason
candymanj13@hotmail.com


This is pretty accurate say 98%. The only one you'll find too.If you find any
please feel free to submit them. Most importantly, enjoy!
this doesn't sound very good when you play the mandolin part on a guitar so don't bother.

intro
the first 3 measures of the song are guitar but it sounds cool to strum the e strings on
off beat of the 2nd of each measure. It's easy to figure out if you just listen

intro
Ho=hammer on
Hf=hammer off

                                              (tricky to hear)
                                                    /
                                     V

E-0---0---0---0---0-0-2-4-4-2-0------0--------------0---0---0-------|
A---0---0---0---0---------------2Ho4---4Hf2-0---0-0---0---0---------|
D---------------------------------------------6---------------6-2-4-|
G-------------------------------------------------------------------|


sleeping on the sofa
         .....Friday
                   E-----
                   A-2Ho4
                   D-----
                   G-----

when the oceans getting warmer
           losangeles is tired
                             E--------------------|
                             A-2Ho4-4-4Hf-2-0-----|
                             D----------------6-4-|
                             G--------------------|


already gone away

play same as intro twice through only on the second time through the ending after the
off is different, this is the interlude riff


E-0---0---0---0---0-0-2-4-4-2-0------0--------------0---0---0-------|
A---0---0---0---0---------------2Ho4---4Hf2-0---0-0---0---0---------|
D---------------------------------------------6---------------6-2-4-|
G-------------------------------------------------------------------|


E-0---0---0---0---0-0-2-4-4-2-0------0------------------------|
A---0---0---0---0---------------2Ho4---4Hf2-0-5Hf-4-2-0-6-2-4-|
D-------------------------------------------------------------|
G-------------------------------------------------------------|


and I'm comming on a sunday
   wonder what you're doing
                but I won't
                 no I won't
                          E----------------|
                          A-2Ho4-4-2-0-----|
                          D------------6-4-|
                          G----------------|

Cause she's already out the door
       she's already out of here
         she's already gone away
                               E---0---0---0---0-|
                               A-0---0---0---0---|
                               D-----------------|
                               G-----------------|

or

                               E---0---0---------|
                               A-0---0---0-------|
                               D-----------6-4-2-|
                               G-----------------|


This little riff is also played at the end of alot of lyrical phrases throughout the song

sometimes they simply have
E---0----|
A--------|
D--------|
G--------|

already gone away

E-0---0---0---0---0-0-2-4-4-2-0------0--------------0---0---0-------|
A---0---0---0---0---------------2Ho4---4Hf2-0---0-0---0---0---------|
D---------------------------------------------6---------------6-2-4-|
G-------------------------------------------------------------------|

E-0---0---0---0---0-0-2-4-4-2-0------0------------------------|
A---0---0---0---0---------------2Ho4---4Hf2-0-5Hf-4-2-0-6-2-4-|
D-------------------------------------------------------------|
G-------------------------------------------------------------|

piano mimic

continue playing this until the song ends

E---0----|
A--------|
D--------|
G--------|

enjoy!                    

Kommentare für gitarrennoten — Sunday (var.2) (Augustana)

Andere Sunday (var.2) von Augustana Registerkarten:

Zuletzt angesehene Augustana Registerkarten: